0
SECTION
2
HEADER
9
$EXTMIN
10
 4.78753000000000E+0005
20
 1.10165000000000E+0006
9
$EXTMAX
10
 4.79803000000000E+0005
20
 1.10221000000000E+0006
0
ENDSEC
0
SECTION
2
TABLES
0
TABLE
2
LTYPE
70
1
0
LTYPE
2
CONTINUOUS
70
64
3
SOLID LINE
72
65
73
0
40
0.0
0
ENDTAB
0
TABLE
2
LAYER
70
4
0
LAYER
2
Links
70
0
62
7
6
CONTINUOUS
0
LAYER
2
Nodes
70
0
62
7
6
CONTINUOUS
0
LAYER
2
Arrows
70
0
62
7
6
CONTINUOUS
0
LAYER
2
Labels
70
0
62
7
6
CONTINUOUS
0
ENDTAB
0
TABLE
2
VIEW
70
0
0
ENDTAB
0
ENDSEC
0
SECTION
2
ENTITIES
0
POLYLINE
8
Links
66
1
40
 2.25714278221130E+0000
41
 2.25714278221130E+0000
62
7
0
VERTEX
8
Links
10
 4.79002375000000E+0005
20
 1.10196787500000E+0006
30
0.0
42
 0.00000000000000E+0000
0
VERTEX
8
Links
10
 4.79017312500000E+0005
20
 1.10191062500000E+0006
30
0.0
42
 0.00000000000000E+0000
0
SEQEND
0
POLYLINE
8
Arrows
66
1
40
 2.25714278221130E+0000
41
 2.25714278221130E+0000
62
7
0
VERTEX
8
Arrows
10
 4.79009843750000E+0005
20
 1.10193925000000E+0006
30
0.0
42
 0.00000000000000E+0000
0
VERTEX
8
Arrows
10
 4.79014031250000E+0005
20
 1.10195900000000E+0006
30
0.0
42
 0.00000000000000E+0000
0
SEQEND
0
POLYLINE
8
Arrows
66
1
40
 2.25714278221130E+0000
41
 2.25714278221130E+0000
62
7
0
VERTEX
8
Arrows
10
 4.79009843750000E+0005
20
 1.10193925000000E+0006
30
0.0
42
 0.00000000000000E+0000
0
VERTEX
8
Arrows
10
 4.78996562500000E+0005
20
 1.10195450000000E+0006
30
0.0
42
 0.00000000000000E+0000
0
SEQEND
0
POLYLINE
8
Links
66
1
40
 2.25714278221130E+0000
41
 2.25714278221130E+0000
62
7
0
VERTEX
8
Links
10
 4.79017312500000E+0005
20
 1.10191062500000E+0006
30
0.0
42
 0.00000000000000E+0000
0
VERTEX
8
Links
10
 4.79041281250000E+0005
20
 1.10182862500000E+0006
30
0.0
42
 0.00000000000000E+0000
0
SEQEND
0
POLYLINE
8
Arrows
66
1
40
 2.25714278221130E+0000
41
 2.25714278221130E+0000
62
7
0
VERTEX
8
Arrows
10
 4.79029312500000E+0005
20
 1.10186962500000E+0006
30
0.0
42
 0.00000000000000E+0000
0
VERTEX
8
Arrows
10
 4.79032906250000E+0005
20
 1.10188950000000E+0006
30
0.0
42
 0.00000000000000E+0000
0
SEQEND
0
POLYLINE
8
Arrows
66
1
40
 2.25714278221130E+0000
41
 2.25714278221130E+0000
62
7
0
VERTEX
8
Arrows
10
 4.79029312500000E+0005
20
 1.10186962500000E+0006
30
0.0
42
 0.00000000000000E+0000
0
VERTEX
8
Arrows
10
 4.79015593750000E+0005
20
 1.10188437500000E+0006
30
0.0
42
 0.00000000000000E+0000
0
SEQEND
0
POLYLINE
8
Links
66
1
40
 2.25714278221130E+0000
41
 2.25714278221130E+0000
62
7
0
VERTEX
8
Links
10
 4.79041281250000E+0005
20
 1.10182862500000E+0006
30
0.0
42
 0.00000000000000E+0000
0
VERTEX
8
Links
10
 4.79054250000000E+0005
20
 1.10182162500000E+0006
30
0.0
42
 0.00000000000000E+0000
0
SEQEND
0
POLYLINE
8
Arrows
66
1
40
 2.25714278221130E+0000
41
 2.25714278221130E+0000
62
7
0
VERTEX
8
Arrows
10
 4.79047750000000E+0005
20
 1.10182512500000E+0006
30
0.0
42
 0.00000000000000E+0000
0
VERTEX
8
Arrows
10
 4.79036156250000E+0005
20
 1.10184162500000E+0006
30
0.0
42
 0.00000000000000E+0000
0
SEQEND
0
POLYLINE
8
Arrows
66
1
40
 2.25714278221130E+0000
41
 2.25714278221130E+0000
62
7
0
VERTEX
8
Arrows
10
 4.79047750000000E+0005
20
 1.10182512500000E+0006
30
0.0
42
 0.00000000000000E+0000
0
VERTEX
8
Arrows
10
 4.79027562500000E+0005
20
 1.10182575000000E+0006
30
0.0
42
 0.00000000000000E+0000
0
SEQEND
0
POLYLINE
8
Links
66
1
40
 2.25714278221130E+0000
41
 2.25714278221130E+0000
62
7
0
VERTEX
8
Links
10
 4.79054250000000E+0005
20
 1.10182162500000E+0006
30
0.0
42
 0.00000000000000E+0000
0
VERTEX
8
Links
10
 4.79042968750000E+0005
20
 1.10180125000000E+0006
30
0.0
42
 0.00000000000000E+0000
0
SEQEND
0
POLYLINE
8
Arrows
66
1
40
 2.25714278221130E+0000
41
 2.25714278221130E+0000
62
7
0
VERTEX
8
Arrows
10
 4.79048625000000E+0005
20
 1.10181150000000E+0006
30
0.0
42
 0.00000000000000E+0000
0
VERTEX
8
Arrows
10
 4.79065281250000E+0005
20
 1.10182287500000E+0006
30
0.0
42
 0.00000000000000E+0000
0
SEQEND
0
POLYLINE
8
Arrows
66
1
40
 2.25714278221130E+0000
41
 2.25714278221130E+0000
62
7
0
VERTEX
8
Arrows
10
 4.79048625000000E+0005
20
 1.10181150000000E+0006
30
0.0
42
 0.00000000000000E+0000
0
VERTEX
8
Arrows
10
 4.79049468750000E+0005
20
 1.10183162500000E+0006
30
0.0
42
 0.00000000000000E+0000
0
SEQEND
0
POLYLINE
8
Links
66
1
40
 2.25714278221130E+0000
41
 2.25714278221130E+0000
62
7
0
VERTEX
8
Links
10
 4.79065000000000E+0005
20
 1.10195325000000E+0006
30
0.0
42
 0.00000000000000E+0000
0
VERTEX
8
Links
10
 4.79071468750000E+0005
20
 1.10192362500000E+0006
30
0.0
42
 0.00000000000000E+0000
0
SEQEND
0
POLYLINE
8
Arrows
66
1
40
 2.25714278221130E+0000
41
 2.25714278221130E+0000
62
7
0
VERTEX
8
Arrows
10
 4.79068250000000E+0005
20
 1.10193850000000E+0006
30
0.0
42
 0.00000000000000E+0000
0
VERTEX
8
Arrows
10
 4.79073218750000E+0005
20
 1.10195812500000E+0006
30
0.0
42
 0.00000000000000E+0000
0
SEQEND
0
POLYLINE
8
Arrows
66
1
40
 2.25714278221130E+0000
41
 2.25714278221130E+0000
62
7
0
VERTEX
8
Arrows
10
 4.79068250000000E+0005
20
 1.10193850000000E+0006
30
0.0
42
 0.00000000000000E+0000
0
VERTEX
8
Arrows
10
 4.79055562500000E+0005
20
 1.10195425000000E+0006
30
0.0
42
 0.00000000000000E+0000
0
SEQEND
0
POLYLINE
8
Links
66
1
40
 2.25714278221130E+0000
41
 2.25714278221130E+0000
62
7
0
VERTEX
8
Links
10
 4.79071468750000E+0005
20
 1.10192362500000E+0006
30
0.0
42
 0.00000000000000E+0000
0
VERTEX
8
Links
10
 4.79094156250000E+0005
20
 1.10185112500000E+0006
30
0.0
42
 0.00000000000000E+0000
0
SEQEND
0
POLYLINE
8
Arrows
66
1
40
 2.25714278221130E+0000
41
 2.25714278221130E+0000
62
7
0
VERTEX
8
Arrows
10
 4.79082812500000E+0005
20
 1.10188737500000E+0006
30
0.0
42
 0.00000000000000E+0000
0
VERTEX
8
Arrows
10
 4.79086031250000E+0005
20
 1.10190725000000E+0006
30
0.0
42
 0.00000000000000E+0000
0
SEQEND
0
POLYLINE
8
Arrows
66
1
40
 2.25714278221130E+0000
41
 2.25714278221130E+0000
62
7
0
VERTEX
8
Arrows
10
 4.79082812500000E+0005
20
 1.10188737500000E+0006
30
0.0
42
 0.00000000000000E+0000
0
VERTEX
8
Arrows
10
 4.79068812500000E+0005
20
 1.10190187500000E+0006
30
0.0
42
 0.00000000000000E+0000
0
SEQEND
0
POLYLINE
8
Links
66
1
40
 2.25714278221130E+0000
41
 2.25714278221130E+0000
62
7
0
VERTEX
8
Links
10
 4.79094156250000E+0005
20
 1.10185112500000E+0006
30
0.0
42
 0.00000000000000E+0000
0
VERTEX
8
Links
10
 4.79099437500000E+0005
20
 1.10183700000000E+0006
30
0.0
42
 0.00000000000000E+0000
0
SEQEND
0
POLYLINE
8
Arrows
66
1
40
 2.25714278221130E+0000
41
 2.25714278221130E+0000
62
7
0
VERTEX
8
Arrows
10
 4.79096812500000E+0005
20
 1.10184400000000E+0006
30
0.0
42
 0.00000000000000E+0000
0
VERTEX
8
Arrows
10
 4.79098937500000E+0005
20
 1.10186412500000E+0006
30
0.0
42
 0.00000000000000E+0000
0
SEQEND
0
POLYLINE
8
Arrows
66
1
40
 2.25714278221130E+0000
41
 2.25714278221130E+0000
62
7
0
VERTEX
8
Arrows
10
 4.79096812500000E+0005
20
 1.10184400000000E+0006
30
0.0
42
 0.00000000000000E+0000
0
VERTEX
8
Arrows
10
 4.79082031250000E+0005
20
 1.10185775000000E+0006
30
0.0
42
 0.00000000000000E+0000
0
SEQEND
0
POLYLINE
8
Links
66
1
40
 2.25714278221130E+0000
41
 2.25714278221130E+0000
62
7
0
VERTEX
8
Links
10
 4.79206000000000E+0005
20
 1.10196625000000E+0006
30
0.0
42
 0.00000000000000E+0000
0
VERTEX
8
Links
10
 4.79133062500000E+0005
20
 1.10196825000000E+0006
30
0.0
42
 0.00000000000000E+0000
0
SEQEND
0
POLYLINE
8
Arrows
66
1
40
 2.25714278221130E+0000
41
 2.25714278221130E+0000
62
7
0
VERTEX
8
Arrows
10
 4.79169531250000E+0005
20
 1.10196725000000E+0006
30
0.0
42
 0.00000000000000E+0000
0
VERTEX
8
Arrows
10
 4.79187343750000E+0005
20
 1.10195775000000E+0006
30
0.0
42
 0.00000000000000E+0000
0
SEQEND
0
POLYLINE
8
Arrows
66
1
40
 2.25714278221130E+0000
41
 2.25714278221130E+0000
62
7
0
VERTEX
8
Arrows
10
 4.79169531250000E+0005
20
 1.10196725000000E+0006
30
0.0
42
 0.00000000000000E+0000
0
VERTEX
8
Arrows
10
 4.79187843750000E+0005
20
 1.10197575000000E+0006
30
0.0
42
 0.00000000000000E+0000
0
SEQEND
0
POLYLINE
8
Links
66
1
40
 2.25714278221130E+0000
41
 2.25714278221130E+0000
62
7
0
VERTEX
8
Links
10
 4.79133062500000E+0005
20
 1.10196825000000E+0006
30
0.0
42
 0.00000000000000E+0000
0
VERTEX
8
Links
10
 4.79150093750000E+0005
20
 1.10189575000000E+0006
30
0.0
42
 0.00000000000000E+0000
0
SEQEND
0
POLYLINE
8
Arrows
66
1
40
 2.25714278221130E+0000
41
 2.25714278221130E+0000
62
7
0
VERTEX
8
Arrows
10
 4.79141562500000E+0005
20
 1.10193200000000E+0006
30
0.0
42
 0.00000000000000E+0000
0
VERTEX
8
Arrows
10
 4.79146218750000E+0005
20
 1.10195162500000E+0006
30
0.0
42
 0.00000000000000E+0000
0
SEQEND
0
POLYLINE
8
Arrows
66
1
40
 2.25714278221130E+0000
41
 2.25714278221130E+0000
62
7
0
VERTEX
8
Arrows
10
 4.79141562500000E+0005
20
 1.10193200000000E+0006
30
0.0
42
 0.00000000000000E+0000
0
VERTEX
8
Arrows
10
 4.79128656250000E+0005
20
 1.10194750000000E+0006
30
0.0
42
 0.00000000000000E+0000
0
SEQEND
0
POLYLINE
8
Links
66
1
40
 2.25714278221130E+0000
41
 2.25714278221130E+0000
62
7
0
VERTEX
8
Links
10
 4.79150093750000E+0005
20
 1.10189575000000E+0006
30
0.0
42
 0.00000000000000E+0000
0
VERTEX
8
Links
10
 4.79153718750000E+0005
20
 1.10185362500000E+0006
30
0.0
42
 0.00000000000000E+0000
0
SEQEND
0
POLYLINE
8
Arrows
66
1
40
 2.25714278221130E+0000
41
 2.25714278221130E+0000
62
7
0
VERTEX
8
Arrows
10
 4.79151906250000E+0005
20
 1.10187475000000E+0006
30
0.0
42
 0.00000000000000E+0000
0
VERTEX
8
Arrows
10
 4.79159343750000E+0005
20
 1.10189350000000E+0006
30
0.0
42
 0.00000000000000E+0000
0
SEQEND
0
POLYLINE
8
Arrows
66
1
40
 2.25714278221130E+0000
41
 2.25714278221130E+0000
62
7
0
VERTEX
8
Arrows
10
 4.79151906250000E+0005
20
 1.10187475000000E+0006
30
0.0
42
 0.00000000000000E+0000
0
VERTEX
8
Arrows
10
 4.79141375000000E+0005
20
 1.10189200000000E+0006
30
0.0
42
 0.00000000000000E+0000
0
SEQEND
0
POLYLINE
8
Links
66
1
40
 2.25714278221130E+0000
41
 2.25714278221130E+0000
62
7
0
VERTEX
8
Links
10
 4.79153718750000E+0005
20
 1.10185362500000E+0006
30
0.0
42
 0.00000000000000E+0000
0
VERTEX
8
Links
10
 4.79099437500000E+0005
20
 1.10183700000000E+0006
30
0.0
42
 0.00000000000000E+0000
0
SEQEND
0
POLYLINE
8
Arrows
66
1
40
 2.25714278221130E+0000
41
 2.25714278221130E+0000
62
7
0
VERTEX
8
Arrows
10
 4.79126562500000E+0005
20
 1.10184525000000E+0006
30
0.0
42
 0.00000000000000E+0000
0
VERTEX
8
Arrows
10
 4.79146468750000E+0005
20
 1.10184187500000E+0006
30
0.0
42
 0.00000000000000E+0000
0
SEQEND
0
POLYLINE
8
Arrows
66
1
40
 2.25714278221130E+0000
41
 2.25714278221130E+0000
62
7
0
VERTEX
8
Arrows
10
 4.79126562500000E+0005
20
 1.10184525000000E+0006
30
0.0
42
 0.00000000000000E+0000
0
VERTEX
8
Arrows
10
 4.79141187500000E+0005
20
 1.10185912500000E+0006
30
0.0
42
 0.00000000000000E+0000
0
SEQEND
0
POLYLINE
8
Links
66
1
40
 2.25714278221130E+0000
41
 2.25714278221130E+0000
62
7
0
VERTEX
8
Links
10
 4.79099437500000E+0005
20
 1.10183700000000E+0006
30
0.0
42
 0.00000000000000E+0000
0
VERTEX
8
Links
10
 4.79107531250000E+0005
20
 1.10181512500000E+0006
30
0.0
42
 0.00000000000000E+0000
0
SEQEND
0
POLYLINE
8
Arrows
66
1
40
 2.25714278221130E+0000
41
 2.25714278221130E+0000
62
7
0
VERTEX
8
Arrows
10
 4.79103500000000E+0005
20
 1.10182600000000E+0006
30
0.0
42
 0.00000000000000E+0000
0
VERTEX
8
Arrows
10
 4.79105687500000E+0005
20
 1.10184612500000E+0006
30
0.0
42
 0.00000000000000E+0000
0
SEQEND
0
POLYLINE
8
Arrows
66
1
40
 2.25714278221130E+0000
41
 2.25714278221130E+0000
62
7
0
VERTEX
8
Arrows
10
 4.79103500000000E+0005
20
 1.10182600000000E+0006
30
0.0
42
 0.00000000000000E+0000
0
VERTEX
8
Arrows
10
 4.79088781250000E+0005
20
 1.10183975000000E+0006
30
0.0
42
 0.00000000000000E+0000
0
SEQEND
0
POLYLINE
8
Links
66
1
40
 2.25714278221130E+0000
41
 2.25714278221130E+0000
62
7
0
VERTEX
8
Links
10
 4.79288656250000E+0005
20
 1.10211812500000E+0006
30
0.0
42
 0.00000000000000E+0000
0
VERTEX
8
Links
10
 4.79243687500000E+0005
20
 1.10207925000000E+0006
30
0.0
42
 0.00000000000000E+0000
0
SEQEND
0
POLYLINE
8
Arrows
66
1
40
 2.25714278221130E+0000
41
 2.25714278221130E+0000
62
7
0
VERTEX
8
Arrows
10
 4.79266187500000E+0005
20
 1.10209875000000E+0006
30
0.0
42
 0.00000000000000E+0000
0
VERTEX
8
Arrows
10
 4.79285750000000E+0005
20
 1.10210375000000E+0006
30
0.0
42
 0.00000000000000E+0000
0
SEQEND
0
POLYLINE
8
Arrows
66
1
40
 2.25714278221130E+0000
41
 2.25714278221130E+0000
62
7
0
VERTEX
8
Arrows
10
 4.79266187500000E+0005
20
 1.10209875000000E+0006
30
0.0
42
 0.00000000000000E+0000
0
VERTEX
8
Arrows
10
 4.79273937500000E+0005
20
 1.10211737500000E+0006
30
0.0
42
 0.00000000000000E+0000
0
SEQEND
0
POLYLINE
8
Links
66
1
40
 2.25714278221130E+0000
41
 2.25714278221130E+0000
62
7
0
VERTEX
8
Links
10
 4.79243687500000E+0005
20
 1.10207925000000E+0006
30
0.0
42
 0.00000000000000E+0000
0
VERTEX
8
Links
10
 4.79217781250000E+0005
20
 1.10204812500000E+0006
30
0.0
42
 0.00000000000000E+0000
0
VERTEX
8
Links
10
 4.79215718750000E+0005
20
 1.10204487500000E+0006
30
0.0
42
 0.00000000000000E+0000
0
SEQEND
0
POLYLINE
8
Arrows
66
1
40
 2.25714278221130E+0000
41
 2.25714278221130E+0000
62
7
0
VERTEX
8
Arrows
10
 2.34278400000000E+0006
20
-7.62786687500000E+0005
30
0.0
42
 0.00000000000000E+0000
0
VERTEX
8
Arrows
10
 2.34279050000000E+0006
20
-7.62805812500000E+0005
30
0.0
42
 0.00000000000000E+0000
0
SEQEND
0
POLYLINE
8
Arrows
66
1
40
 2.25714278221130E+0000
41
 2.25714278221130E+0000
62
7
0
VERTEX
8
Arrows
10
 2.34278400000000E+0006
20
-7.62786687500000E+0005
30
0.0
42
 0.00000000000000E+0000
0
VERTEX
8
Arrows
10
 2.34280325000000E+0006
20
-7.62793062500000E+0005
30
0.0
42
 0.00000000000000E+0000
0
SEQEND
0
POLYLINE
8
Links
66
1
40
 2.25714278221130E+0000
41
 2.25714278221130E+0000
62
7
0
VERTEX
8
Links
10
 4.79215718750000E+0005
20
 1.10204487500000E+0006
30
0.0
42
 0.00000000000000E+0000
0
VERTEX
8
Links
10
 4.79207625000000E+0005
20
 1.10201487500000E+0006
30
0.0
42
 0.00000000000000E+0000
0
SEQEND
0
POLYLINE
8
Arrows
66
1
40
 2.25714278221130E+0000
41
 2.25714278221130E+0000
62
7
0
VERTEX
8
Arrows
10
 4.79211687500000E+0005
20
 1.10202987500000E+0006
30
0.0
42
 0.00000000000000E+0000
0
VERTEX
8
Arrows
10
 4.79225093750000E+0005
20
 1.10204500000000E+0006
30
0.0
42
 0.00000000000000E+0000
0
SEQEND
0
POLYLINE
8
Arrows
66
1
40
 2.25714278221130E+0000
41
 2.25714278221130E+0000
62
7
0
VERTEX
8
Arrows
10
 4.79211687500000E+0005
20
 1.10202987500000E+0006
30
0.0
42
 0.00000000000000E+0000
0
VERTEX
8
Arrows
10
 4.79207687500000E+0005
20
 1.10204962500000E+0006
30
0.0
42
 0.00000000000000E+0000
0
SEQEND
0
POLYLINE
8
Links
66
1
40
 2.25714278221130E+0000
41
 2.25714278221130E+0000
62
7
0
VERTEX
8
Links
10
 4.79176406250000E+0005
20
 1.10201725000000E+0006
30
0.0
42
 0.00000000000000E+0000
0
VERTEX
8
Links
10
 4.79207625000000E+0005
20
 1.10201487500000E+0006
30
0.0
42
 0.00000000000000E+0000
0
SEQEND
0
POLYLINE
8
Arrows
66
1
40
 2.25714278221130E+0000
41
 2.25714278221130E+0000
62
7
0
VERTEX
8
Arrows
10
 4.79192000000000E+0005
20
 1.10201600000000E+0006
30
0.0
42
 0.00000000000000E+0000
0
VERTEX
8
Arrows
10
 4.79174687500000E+0005
20
 1.10202637500000E+0006
30
0.0
42
 0.00000000000000E+0000
0
SEQEND
0
POLYLINE
8
Arrows
66
1
40
 2.25714278221130E+0000
41
 2.25714278221130E+0000
62
7
0
VERTEX
8
Arrows
10
 4.79192000000000E+0005
20
 1.10201600000000E+0006
30
0.0
42
 0.00000000000000E+0000
0
VERTEX
8
Arrows
10
 4.79173312500000E+0005
20
 1.10200837500000E+0006
30
0.0
42
 0.00000000000000E+0000
0
SEQEND
0
POLYLINE
8
Links
66
1
40
 2.25714278221130E+0000
41
 2.25714278221130E+0000
62
7
0
VERTEX
8
Links
10
 4.79207625000000E+0005
20
 1.10201487500000E+0006
30
0.0
42
 0.00000000000000E+0000
0
VERTEX
8
Links
10
 4.79292718750000E+0005
20
 1.10201287500000E+0006
30
0.0
42
 0.00000000000000E+0000
0
SEQEND
0
POLYLINE
8
Arrows
66
1
40
 2.25714278221130E+0000
41
 2.25714278221130E+0000
62
7
0
VERTEX
8
Arrows
10
 4.79250187500000E+0005
20
 1.10201387500000E+0006
30
0.0
42
 0.00000000000000E+0000
0
VERTEX
8
Arrows
10
 4.79232343750000E+0005
20
 1.10202337500000E+0006
30
0.0
42
 0.00000000000000E+0000
0
SEQEND
0
POLYLINE
8
Arrows
66
1
40
 2.25714278221130E+0000
41
 2.25714278221130E+0000
62
7
0
VERTEX
8
Arrows
10
 4.79250187500000E+0005
20
 1.10201387500000E+0006
30
0.0
42
 0.00000000000000E+0000
0
VERTEX
8
Arrows
10
 4.79231937500000E+0005
20
 1.10200525000000E+0006
30
0.0
42
 0.00000000000000E+0000
0
SEQEND
0
POLYLINE
8
Links
66
1
40
 2.25714278221130E+0000
41
 2.25714278221130E+0000
62
7
0
VERTEX
8
Links
10
 4.79291500000000E+0005
20
 1.10205937500000E+0006
30
0.0
42
 0.00000000000000E+0000
0
VERTEX
8
Links
10
 4.79292718750000E+0005
20
 1.10201287500000E+0006
30
0.0
42
 0.00000000000000E+0000
0
SEQEND
0
POLYLINE
8
Arrows
66
1
40
 2.25714278221130E+0000
41
 2.25714278221130E+0000
62
7
0
VERTEX
8
Arrows
10
 4.79292125000000E+0005
20
 1.10203612500000E+0006
30
0.0
42
 0.00000000000000E+0000
0
VERTEX
8
Arrows
10
 4.79300687500000E+0005
20
 1.10205437500000E+0006
30
0.0
42
 0.00000000000000E+0000
0
SEQEND
0
POLYLINE
8
Arrows
66
1
40
 2.25714278221130E+0000
41
 2.25714278221130E+0000
62
7
0
VERTEX
8
Arrows
10
 4.79292125000000E+0005
20
 1.10203612500000E+0006
30
0.0
42
 0.00000000000000E+0000
0
VERTEX
8
Arrows
10
 4.79282625000000E+0005
20
 1.10205400000000E+0006
30
0.0
42
 0.00000000000000E+0000
0
SEQEND
0
POLYLINE
8
Links
66
1
40
 2.25714278221130E+0000
41
 2.25714278221130E+0000
62
7
0
VERTEX
8
Links
10
 4.79429656250000E+0005
20
 1.10201162500000E+0006
30
0.0
42
 0.00000000000000E+0000
0
VERTEX
8
Links
10
 4.79342531250000E+0005
20
 1.10201525000000E+0006
30
0.0
42
 0.00000000000000E+0000
0
SEQEND
0
POLYLINE
8
Arrows
66
1
40
 2.25714278221130E+0000
41
 2.25714278221130E+0000
62
7
0
VERTEX
8
Arrows
10
 4.79386093750000E+0005
20
 1.10201350000000E+0006
30
0.0
42
 0.00000000000000E+0000
0
VERTEX
8
Arrows
10
 4.79403750000000E+0005
20
 1.10200375000000E+0006
30
0.0
42
 0.00000000000000E+0000
0
SEQEND
0
POLYLINE
8
Arrows
66
1
40
 2.25714278221130E+0000
41
 2.25714278221130E+0000
62
7
0
VERTEX
8
Arrows
10
 4.79386093750000E+0005
20
 1.10201350000000E+0006
30
0.0
42
 0.00000000000000E+0000
0
VERTEX
8
Arrows
10
 4.79404500000000E+0005
20
 1.10202175000000E+0006
30
0.0
42
 0.00000000000000E+0000
0
SEQEND
0
POLYLINE
8
Links
66
1
40
 2.25714278221130E+0000
41
 2.25714278221130E+0000
62
7
0
VERTEX
8
Links
10
 4.79342531250000E+0005
20
 1.10201525000000E+0006
30
0.0
42
 0.00000000000000E+0000
0
VERTEX
8
Links
10
 4.79292718750000E+0005
20
 1.10201287500000E+0006
30
0.0
42
 0.00000000000000E+0000
0
SEQEND
0
POLYLINE
8
Arrows
66
1
40
 2.25714278221130E+0000
41
 2.25714278221130E+0000
62
7
0
VERTEX
8
Arrows
10
 4.79317625000000E+0005
20
 1.10201400000000E+0006
30
0.0
42
 0.00000000000000E+0000
0
VERTEX
8
Arrows
10
 4.79336093750000E+0005
20
 1.10200587500000E+0006
30
0.0
42
 0.00000000000000E+0000
0
SEQEND
0
POLYLINE
8
Arrows
66
1
40
 2.25714278221130E+0000
41
 2.25714278221130E+0000
62
7
0
VERTEX
8
Arrows
10
 4.79317625000000E+0005
20
 1.10201400000000E+0006
30
0.0
42
 0.00000000000000E+0000
0
VERTEX
8
Arrows
10
 4.79335218750000E+0005
20
 1.10202387500000E+0006
30
0.0
42
 0.00000000000000E+0000
0
SEQEND
0
POLYLINE
8
Links
66
1
40
 2.25714278221130E+0000
41
 2.25714278221130E+0000
62
7
0
VERTEX
8
Links
10
 4.79292718750000E+0005
20
 1.10201287500000E+0006
30
0.0
42
 0.00000000000000E+0000
0
VERTEX
8
Links
10
 4.79293531250000E+0005
20
 1.10197350000000E+0006
30
0.0
42
 0.00000000000000E+0000
0
SEQEND
0
POLYLINE
8
Arrows
66
1
40
 2.25714278221130E+0000
41
 2.25714278221130E+0000
62
7
0
VERTEX
8
Arrows
10
 4.79293125000000E+0005
20
 1.10199325000000E+0006
30
0.0
42
 0.00000000000000E+0000
0
VERTEX
8
Arrows
10
 4.79301781250000E+0005
20
 1.10201150000000E+0006
30
0.0
42
 0.00000000000000E+0000
0
SEQEND
0
POLYLINE
8
Arrows
66
1
40
 2.25714278221130E+0000
41
 2.25714278221130E+0000
62
7
0
VERTEX
8
Arrows
10
 4.79293125000000E+0005
20
 1.10199325000000E+0006
30
0.0
42
 0.00000000000000E+0000
0
VERTEX
8
Arrows
10
 4.79283718750000E+0005
20
 1.10201112500000E+0006
30
0.0
42
 0.00000000000000E+0000
0
SEQEND
0
POLYLINE
8
Links
66
1
40
 2.25714278221130E+0000
41
 2.25714278221130E+0000
62
7
0
VERTEX
8
Links
10
 4.79293531250000E+0005
20
 1.10197350000000E+0006
30
0.0
42
 0.00000000000000E+0000
0
VERTEX
8
Links
10
 4.79293937500000E+0005
20
 1.10196212500000E+0006
30
0.0
42
 0.00000000000000E+0000
0
SEQEND
0
POLYLINE
8
Arrows
66
1
40
 2.25714278221130E+0000
41
 2.25714278221130E+0000
62
7
0
VERTEX
8
Arrows
10
 4.79293750000000E+0005
20
 1.10196775000000E+0006
30
0.0
42
 0.00000000000000E+0000
0
VERTEX
8
Arrows
10
 4.79302125000000E+0005
20
 1.10198612500000E+0006
30
0.0
42
 0.00000000000000E+0000
0
SEQEND
0
POLYLINE
8
Arrows
66
1
40
 2.25714278221130E+0000
41
 2.25714278221130E+0000
62
7
0
VERTEX
8
Arrows
10
 4.79293750000000E+0005
20
 1.10196775000000E+0006
30
0.0
42
 0.00000000000000E+0000
0
VERTEX
8
Arrows
10
 4.79284093750000E+0005
20
 1.10198550000000E+0006
30
0.0
42
 0.00000000000000E+0000
0
SEQEND
0
POLYLINE
8
Links
66
1
40
 2.25714278221130E+0000
41
 2.25714278221130E+0000
62
7
0
VERTEX
8
Links
10
 4.79293937500000E+0005
20
 1.10196212500000E+0006
30
0.0
42
 0.00000000000000E+0000
0
VERTEX
8
Links
10
 4.79290281250000E+0005
20
 1.10192450000000E+0006
30
0.0
42
 0.00000000000000E+0000
0
SEQEND
0
POLYLINE
8
Arrows
66
1
40
 2.25714278221130E+0000
41
 2.25714278221130E+0000
62
7
0
VERTEX
8
Arrows
10
 4.79292125000000E+0005
20
 1.10194325000000E+0006
30
0.0
42
 0.00000000000000E+0000
0
VERTEX
8
Arrows
10
 4.79302843750000E+0005
20
 1.10196037500000E+0006
30
0.0
42
 0.00000000000000E+0000
0
SEQEND
0
POLYLINE
8
Arrows
66
1
40
 2.25714278221130E+0000
41
 2.25714278221130E+0000
62
7
0
VERTEX
8
Arrows
10
 4.79292125000000E+0005
20
 1.10194325000000E+0006
30
0.0
42
 0.00000000000000E+0000
0
VERTEX
8
Arrows
10
 4.79284875000000E+0005
20
 1.10196212500000E+0006
30
0.0
42
 0.00000000000000E+0000
0
SEQEND
0
POLYLINE
8
Links
66
1
40
 2.25714278221130E+0000
41
 2.25714278221130E+0000
62
7
0
VERTEX
8
Links
10
 4.79290281250000E+0005
20
 1.10192450000000E+0006
30
0.0
42
 0.00000000000000E+0000
0
VERTEX
8
Links
10
 4.79289875000000E+0005
20
 1.10189212500000E+0006
30
0.0
42
 0.00000000000000E+0000
0
SEQEND
0
POLYLINE
8
Arrows
66
1
40
 2.25714278221130E+0000
41
 2.25714278221130E+0000
62
7
0
VERTEX
8
Arrows
10
 4.79290062500000E+0005
20
 1.10190825000000E+0006
30
0.0
42
 0.00000000000000E+0000
0
VERTEX
8
Arrows
10
 4.79299312500000E+0005
20
 1.10192625000000E+0006
30
0.0
42
 0.00000000000000E+0000
0
SEQEND
0
POLYLINE
8
Arrows
66
1
40
 2.25714278221130E+0000
41
 2.25714278221130E+0000
62
7
0
VERTEX
8
Arrows
10
 4.79290062500000E+0005
20
 1.10190825000000E+0006
30
0.0
42
 0.00000000000000E+0000
0
VERTEX
8
Arrows
10
 4.79281250000000E+0005
20
 1.10192637500000E+0006
30
0.0
42
 0.00000000000000E+0000
0
SEQEND
0
POLYLINE
8
Links
66
1
40
 2.25714278221130E+0000
41
 2.25714278221130E+0000
62
7
0
VERTEX
8
Links
10
 4.79449500000000E+0005
20
 1.10195887500000E+0006
30
0.0
42
 0.00000000000000E+0000
0
VERTEX
8
Links
10
 4.79436156250000E+0005
20
 1.10195362500000E+0006
30
0.0
42
 0.00000000000000E+0000
0
SEQEND
0
POLYLINE
8
Arrows
66
1
40
 2.25714278221130E+0000
41
 2.25714278221130E+0000
62
7
0
VERTEX
8
Arrows
10
 4.79442812500000E+0005
20
 1.10195625000000E+0006
30
0.0
42
 0.00000000000000E+0000
0
VERTEX
8
Arrows
10
 4.79462906250000E+0005
20
 1.10195450000000E+0006
30
0.0
42
 0.00000000000000E+0000
0
SEQEND
0
POLYLINE
8
Arrows
66
1
40
 2.25714278221130E+0000
41
 2.25714278221130E+0000
62
7
0
VERTEX
8
Arrows
10
 4.79442812500000E+0005
20
 1.10195625000000E+0006
30
0.0
42
 0.00000000000000E+0000
0
VERTEX
8
Arrows
10
 4.79456312500000E+0005
20
 1.10197125000000E+0006
30
0.0
42
 0.00000000000000E+0000
0
SEQEND
0
POLYLINE
8
Links
66
1
40
 2.25714278221130E+0000
41
 2.25714278221130E+0000
62
7
0
VERTEX
8
Links
10
 4.79436156250000E+0005
20
 1.10195362500000E+0006
30
0.0
42
 0.00000000000000E+0000
0
VERTEX
8
Links
10
 4.79413843750000E+0005
20
 1.10195525000000E+0006
30
0.0
42
 0.00000000000000E+0000
0
SEQEND
0
POLYLINE
8
Arrows
66
1
40
 2.25714278221130E+0000
41
 2.25714278221130E+0000
62
7
0
VERTEX
8
Arrows
10
 4.79425000000000E+0005
20
 1.10195450000000E+0006
30
0.0
42
 0.00000000000000E+0000
0
VERTEX
8
Arrows
10
 4.79442343750000E+0005
20
 1.10194412500000E+0006
30
0.0
42
 0.00000000000000E+0000
0
SEQEND
0
POLYLINE
8
Arrows
66
1
40
 2.25714278221130E+0000
41
 2.25714278221130E+0000
62
7
0
VERTEX
8
Arrows
10
 4.79425000000000E+0005
20
 1.10195450000000E+0006
30
0.0
42
 0.00000000000000E+0000
0
VERTEX
8
Arrows
10
 4.79443656250000E+0005
20
 1.10196225000000E+0006
30
0.0
42
 0.00000000000000E+0000
0
SEQEND
0
POLYLINE
8
Links
66
1
40
 2.25714278221130E+0000
41
 2.25714278221130E+0000
62
7
0
VERTEX
8
Links
10
 4.79413843750000E+0005
20
 1.10195525000000E+0006
30
0.0
42
 0.00000000000000E+0000
0
VERTEX
8
Links
10
 4.79413437500000E+0005
20
 1.10191150000000E+0006
30
0.0
42
 0.00000000000000E+0000
0
SEQEND
0
POLYLINE
8
Arrows
66
1
40
 2.25714278221130E+0000
41
 2.25714278221130E+0000
62
7
0
VERTEX
8
Arrows
10
 4.79413625000000E+0005
20
 1.10193337500000E+0006
30
0.0
42
 0.00000000000000E+0000
0
VERTEX
8
Arrows
10
 4.79422812500000E+0005
20
 1.10195137500000E+0006
30
0.0
42
 0.00000000000000E+0000
0
SEQEND
0
POLYLINE
8
Arrows
66
1
40
 2.25714278221130E+0000
41
 2.25714278221130E+0000
62
7
0
VERTEX
8
Arrows
10
 4.79413625000000E+0005
20
 1.10193337500000E+0006
30
0.0
42
 0.00000000000000E+0000
0
VERTEX
8
Arrows
10
 4.79404750000000E+0005
20
 1.10195150000000E+0006
30
0.0
42
 0.00000000000000E+0000
0
SEQEND
0
POLYLINE
8
Links
66
1
40
 2.25714278221130E+0000
41
 2.25714278221130E+0000
62
7
0
VERTEX
8
Links
10
 4.79413437500000E+0005
20
 1.10191150000000E+0006
30
0.0
42
 0.00000000000000E+0000
0
VERTEX
8
Links
10
 4.79412656250000E+0005
20
 1.10189900000000E+0006
30
0.0
42
 0.00000000000000E+0000
0
SEQEND
0
POLYLINE
8
Arrows
66
1
40
 2.25714278221130E+0000
41
 2.25714278221130E+0000
62
7
0
VERTEX
8
Arrows
10
 4.79413062500000E+0005
20
 1.10190525000000E+0006
30
0.0
42
 0.00000000000000E+0000
0
VERTEX
8
Arrows
10
 4.79423187500000E+0005
20
 1.10192275000000E+0006
30
0.0
42
 0.00000000000000E+0000
0
SEQEND
0
POLYLINE
8
Arrows
66
1
40
 2.25714278221130E+0000
41
 2.25714278221130E+0000
62
7
0
VERTEX
8
Arrows
10
 4.79413062500000E+0005
20
 1.10190525000000E+0006
30
0.0
42
 0.00000000000000E+0000
0
VERTEX
8
Arrows
10
 4.79405187500000E+0005
20
 1.10192387500000E+0006
30
0.0
42
 0.00000000000000E+0000
0
SEQEND
0
POLYLINE
8
Links
66
1
40
 2.25714278221130E+0000
41
 2.25714278221130E+0000
62
7
0
VERTEX
8
Links
10
 4.79412656250000E+0005
20
 1.10189900000000E+0006
30
0.0
42
 0.00000000000000E+0000
0
VERTEX
8
Links
10
 4.79289875000000E+0005
20
 1.10189212500000E+0006
30
0.0
42
 0.00000000000000E+0000
0
SEQEND
0
POLYLINE
8
Arrows
66
1
40
 2.25714278221130E+0000
41
 2.25714278221130E+0000
62
7
0
VERTEX
8
Arrows
10
 4.79351250000000E+0005
20
 1.10189550000000E+0006
30
0.0
42
 0.00000000000000E+0000
0
VERTEX
8
Arrows
10
 4.79369781250000E+0005
20
 1.10188750000000E+0006
30
0.0
42
 0.00000000000000E+0000
0
SEQEND
0
POLYLINE
8
Arrows
66
1
40
 2.25714278221130E+0000
41
 2.25714278221130E+0000
62
7
0
VERTEX
8
Arrows
10
 4.79351250000000E+0005
20
 1.10189550000000E+0006
30
0.0
42
 0.00000000000000E+0000
0
VERTEX
8
Arrows
10
 4.79368781250000E+0005
20
 1.10190550000000E+0006
30
0.0
42
 0.00000000000000E+0000
0
SEQEND
0
POLYLINE
8
Links
66
1
40
 2.25714278221130E+0000
41
 2.25714278221130E+0000
62
7
0
VERTEX
8
Links
10
 4.79289875000000E+0005
20
 1.10189212500000E+0006
30
0.0
42
 0.00000000000000E+0000
0
VERTEX
8
Links
10
 4.79295218750000E+0005
20
 1.10185862500000E+0006
30
0.0
42
 0.00000000000000E+0000
0
SEQEND
0
POLYLINE
8
Arrows
66
1
40
 2.25714278221130E+0000
41
 2.25714278221130E+0000
62
7
0
VERTEX
8
Arrows
10
 4.79292562500000E+0005
20
 1.10187537500000E+0006
30
0.0
42
 0.00000000000000E+0000
0
VERTEX
8
Arrows
10
 4.79298625000000E+0005
20
 1.10189462500000E+0006
30
0.0
42
 0.00000000000000E+0000
0
SEQEND
0
POLYLINE
8
Arrows
66
1
40
 2.25714278221130E+0000
41
 2.25714278221130E+0000
62
7
0
VERTEX
8
Arrows
10
 4.79292562500000E+0005
20
 1.10187537500000E+0006
30
0.0
42
 0.00000000000000E+0000
0
VERTEX
8
Arrows
10
 4.79280812500000E+0005
20
 1.10189175000000E+0006
30
0.0
42
 0.00000000000000E+0000
0
SEQEND
0
POLYLINE
8
Links
66
1
40
 2.25714278221130E+0000
41
 2.25714278221130E+0000
62
7
0
VERTEX
8
Links
10
 4.79349875000000E+0005
20
 1.10181037500000E+0006
30
0.0
42
 0.00000000000000E+0000
0
VERTEX
8
Links
10
 4.79331750000000E+0005
20
 1.10183512500000E+0006
30
0.0
42
 0.00000000000000E+0000
0
SEQEND
0
POLYLINE
8
Arrows
66
1
40
 2.25714278221130E+0000
41
 2.25714278221130E+0000
62
7
0
VERTEX
8
Arrows
10
 4.79340812500000E+0005
20
 1.10182275000000E+0006
30
0.0
42
 0.00000000000000E+0000
0
VERTEX
8
Arrows
10
 4.79344187500000E+0005
20
 1.10180287500000E+0006
30
0.0
42
 0.00000000000000E+0000
0
SEQEND
0
POLYLINE
8
Arrows
66
1
40
 2.25714278221130E+0000
41
 2.25714278221130E+0000
62
7
0
VERTEX
8
Arrows
10
 4.79340812500000E+0005
20
 1.10182275000000E+0006
30
0.0
42
 0.00000000000000E+0000
0
VERTEX
8
Arrows
10
 4.79358750000000E+0005
20
 1.10181350000000E+0006
30
0.0
42
 0.00000000000000E+0000
0
SEQEND
0
POLYLINE
8
Links
66
1
40
 2.25714278221130E+0000
41
 2.25714278221130E+0000
62
7
0
VERTEX
8
Links
10
 4.79331750000000E+0005
20
 1.10183512500000E+0006
30
0.0
42
 0.00000000000000E+0000
0
VERTEX
8
Links
10
 4.79304000000000E+0005
20
 1.10186175000000E+0006
30
0.0
42
 0.00000000000000E+0000
0
SEQEND
0
POLYLINE
8
Arrows
66
1
40
 2.25714278221130E+0000
41
 2.25714278221130E+0000
62
7
0
VERTEX
8
Arrows
10
 4.79317875000000E+0005
20
 1.10184850000000E+0006
30
0.0
42
 0.00000000000000E+0000
0
VERTEX
8
Arrows
10
 4.79324656250000E+0005
20
 1.10182950000000E+0006
30
0.0
42
 0.00000000000000E+0000
0
SEQEND
0
POLYLINE
8
Arrows
66
1
40
 2.25714278221130E+0000
41
 2.25714278221130E+0000
62
7
0
VERTEX
8
Arrows
10
 4.79317875000000E+0005
20
 1.10184850000000E+0006
30
0.0
42
 0.00000000000000E+0000
0
VERTEX
8
Arrows
10
 4.79337156250000E+0005
20
 1.10184250000000E+0006
30
0.0
42
 0.00000000000000E+0000
0
SEQEND
0
POLYLINE
8
Links
66
1
40
 2.25714278221130E+0000
41
 2.25714278221130E+0000
62
7
0
VERTEX
8
Links
10
 4.79253500000000E+0005
20
 1.10171662500000E+0006
30
0.0
42
 0.00000000000000E+0000
0
VERTEX
8
Links
10
 4.79248218750000E+0005
20
 1.10174412500000E+0006
30
0.0
42
 0.00000000000000E+0000
0
SEQEND
0
POLYLINE
8
Arrows
66
1
40
 2.25714278221130E+0000
41
 2.25714278221130E+0000
62
7
0
VERTEX
8
Arrows
10
 4.79250875000000E+0005
20
 1.10173037500000E+0006
30
0.0
42
 0.00000000000000E+0000
0
VERTEX
8
Arrows
10
 4.79245406250000E+0005
20
 1.10171100000000E+0006
30
0.0
42
 0.00000000000000E+0000
0
SEQEND
0
POLYLINE
8
Arrows
66
1
40
 2.25714278221130E+0000
41
 2.25714278221130E+0000
62
7
0
VERTEX
8
Arrows
10
 4.79250875000000E+0005
20
 1.10173037500000E+0006
30
0.0
42
 0.00000000000000E+0000
0
VERTEX
8
Arrows
10
 4.79263156250000E+0005
20
 1.10171437500000E+0006
30
0.0
42
 0.00000000000000E+0000
0
SEQEND
0
POLYLINE
8
Links
66
1
40
 2.25714278221130E+0000
41
 2.25714278221130E+0000
62
7
0
VERTEX
8
Links
10
 4.79248218750000E+0005
20
 1.10174412500000E+0006
30
0.0
42
 0.00000000000000E+0000
0
VERTEX
8
Links
10
 4.79232562500000E+0005
20
 1.10181775000000E+0006
30
0.0
42
 0.00000000000000E+0000
0
SEQEND
0
POLYLINE
8
Arrows
66
1
40
 2.25714278221130E+0000
41
 2.25714278221130E+0000
62
7
0
VERTEX
8
Arrows
10
 4.79240375000000E+0005
20
 1.10178100000000E+0006
30
0.0
42
 0.00000000000000E+0000
0
VERTEX
8
Arrows
10
 4.79235312500000E+0005
20
 1.10176150000000E+0006
30
0.0
42
 0.00000000000000E+0000
0
SEQEND
0
POLYLINE
8
Arrows
66
1
40
 2.25714278221130E+0000
41
 2.25714278221130E+0000
62
7
0
VERTEX
8
Arrows
10
 4.79240375000000E+0005
20
 1.10178100000000E+0006
30
0.0
42
 0.00000000000000E+0000
0
VERTEX
8
Arrows
10
 4.79252968750000E+0005
20
 1.10176525000000E+0006
30
0.0
42
 0.00000000000000E+0000
0
SEQEND
0
POLYLINE
8
Links
66
1
40
 2.25714278221130E+0000
41
 2.25714278221130E+0000
62
7
0
VERTEX
8
Links
10
 4.79215156250000E+0005
20
 1.10170850000000E+0006
30
0.0
42
 0.00000000000000E+0000
0
VERTEX
8
Links
10
 4.79201468750000E+0005
20
 1.10178225000000E+0006
30
0.0
42
 0.00000000000000E+0000
0
SEQEND
0
POLYLINE
8
Arrows
66
1
40
 2.25714278221130E+0000
41
 2.25714278221130E+0000
62
7
0
VERTEX
8
Arrows
10
 4.79208312500000E+0005
20
 1.10174537500000E+0006
30
0.0
42
 0.00000000000000E+0000
0
VERTEX
8
Arrows
10
 4.79202718750000E+0005
20
 1.10172600000000E+0006
30
0.0
42
 0.00000000000000E+0000
0
SEQEND
0
POLYLINE
8
Arrows
66
1
40
 2.25714278221130E+0000
41
 2.25714278221130E+0000
62
7
0
VERTEX
8
Arrows
10
 4.79208312500000E+0005
20
 1.10174537500000E+0006
30
0.0
42
 0.00000000000000E+0000
0
VERTEX
8
Arrows
10
 4.79220500000000E+0005
20
 1.10172925000000E+0006
30
0.0
42
 0.00000000000000E+0000
0
SEQEND
0
POLYLINE
8
Links
66
1
40
 2.25714278221130E+0000
41
 2.25714278221130E+0000
62
7
0
VERTEX
8
Links
10
 4.79201468750000E+0005
20
 1.10178225000000E+0006
30
0.0
42
 0.00000000000000E+0000
0
VERTEX
8
Links
10
 4.79197750000000E+0005
20
 1.10180700000000E+0006
30
0.0
42
 0.00000000000000E+0000
0
SEQEND
0
POLYLINE
8
Arrows
66
1
40
 2.25714278221130E+0000
41
 2.25714278221130E+0000
62
7
0
VERTEX
8
Arrows
10
 4.79199625000000E+0005
20
 1.10179462500000E+0006
30
0.0
42
 0.00000000000000E+0000
0
VERTEX
8
Arrows
10
 4.79193375000000E+0005
20
 1.10177537500000E+0006
30
0.0
42
 0.00000000000000E+0000
0
SEQEND
0
POLYLINE
8
Arrows
66
1
40
 2.25714278221130E+0000
41
 2.25714278221130E+0000
62
7
0
VERTEX
8
Arrows
10
 4.79199625000000E+0005
20
 1.10179462500000E+0006
30
0.0
42
 0.00000000000000E+0000
0
VERTEX
8
Arrows
10
 4.79211250000000E+0005
20
 1.10177812500000E+0006
30
0.0
42
 0.00000000000000E+0000
0
SEQEND
0
POLYLINE
8
Links
66
1
40
 2.25714278221130E+0000
41
 2.25714278221130E+0000
62
7
0
VERTEX
8
Links
10
 4.79197750000000E+0005
20
 1.10180700000000E+0006
30
0.0
42
 0.00000000000000E+0000
0
VERTEX
8
Links
10
 4.79232562500000E+0005
20
 1.10181775000000E+0006
30
0.0
42
 0.00000000000000E+0000
0
SEQEND
0
POLYLINE
8
Arrows
66
1
40
 2.25714278221130E+0000
41
 2.25714278221130E+0000
62
7
0
VERTEX
8
Arrows
10
 4.79215156250000E+0005
20
 1.10181237500000E+0006
30
0.0
42
 0.00000000000000E+0000
0
VERTEX
8
Arrows
10
 4.79195250000000E+0005
20
 1.10181562500000E+0006
30
0.0
42
 0.00000000000000E+0000
0
SEQEND
0
POLYLINE
8
Arrows
66
1
40
 2.25714278221130E+0000
41
 2.25714278221130E+0000
62
7
0
VERTEX
8
Arrows
10
 4.79215156250000E+0005
20
 1.10181237500000E+0006
30
0.0
42
 0.00000000000000E+0000
0
VERTEX
8
Arrows
10
 4.79200562500000E+0005
20
 1.10179837500000E+0006
30
0.0
42
 0.00000000000000E+0000
0
SEQEND
0
POLYLINE
8
Links
66
1
40
 2.25714278221130E+0000
41
 2.25714278221130E+0000
62
7
0
VERTEX
8
Links
10
 4.79232562500000E+0005
20
 1.10181775000000E+0006
30
0.0
42
 0.00000000000000E+0000
0
VERTEX
8
Links
10
 4.79234031250000E+0005
20
 1.10183737500000E+0006
30
0.0
42
 0.00000000000000E+0000
0
SEQEND
0
POLYLINE
8
Arrows
66
1
40
 2.25714278221130E+0000
41
 2.25714278221130E+0000
62
7
0
VERTEX
8
Arrows
10
 4.79233312500000E+0005
20
 1.10182750000000E+0006
30
0.0
42
 0.00000000000000E+0000
0
VERTEX
8
Arrows
10
 4.79222968750000E+0005
20
 1.10181012500000E+0006
30
0.0
42
 0.00000000000000E+0000
0
SEQEND
0
POLYLINE
8
Arrows
66
1
40
 2.25714278221130E+0000
41
 2.25714278221130E+0000
62
7
0
VERTEX
8
Arrows
10
 4.79233312500000E+0005
20
 1.10182750000000E+0006
30
0.0
42
 0.00000000000000E+0000
0
VERTEX
8
Arrows
10
 4.79240968750000E+0005
20
 1.10180887500000E+0006
30
0.0
42
 0.00000000000000E+0000
0
SEQEND
0
POLYLINE
8
Links
66
1
40
 2.25714278221130E+0000
41
 2.25714278221130E+0000
62
7
0
VERTEX
8
Links
10
 4.79180375000000E+0005
20
 1.10170337500000E+0006
30
0.0
42
 0.00000000000000E+0000
0
VERTEX
8
Links
10
 4.79176281250000E+0005
20
 1.10173225000000E+0006
30
0.0
42
 0.00000000000000E+0000
0
SEQEND
0
POLYLINE
8
Arrows
66
1
40
 2.25714278221130E+0000
41
 2.25714278221130E+0000
62
7
0
VERTEX
8
Arrows
10
 4.79178312500000E+0005
20
 1.10171775000000E+0006
30
0.0
42
 0.00000000000000E+0000
0
VERTEX
8
Arrows
10
 4.79171906250000E+0005
20
 1.10169862500000E+0006
30
0.0
42
 0.00000000000000E+0000
0
SEQEND
0
POLYLINE
8
Arrows
66
1
40
 2.25714278221130E+0000
41
 2.25714278221130E+0000
62
7
0
VERTEX
8
Arrows
10
 4.79178312500000E+0005
20
 1.10171775000000E+0006
30
0.0
42
 0.00000000000000E+0000
0
VERTEX
8
Arrows
10
 4.79189781250000E+0005
20
 1.10170112500000E+0006
30
0.0
42
 0.00000000000000E+0000
0
SEQEND
0
POLYLINE
8
Links
66
1
40
 2.25714278221130E+0000
41
 2.25714278221130E+0000
62
7
0
VERTEX
8
Links
10
 4.79176281250000E+0005
20
 1.10173225000000E+0006
30
0.0
42
 0.00000000000000E+0000
0
VERTEX
8
Links
10
 4.79166062500000E+0005
20
 1.10178162500000E+0006
30
0.0
42
 0.00000000000000E+0000
0
SEQEND
0
POLYLINE
8
Arrows
66
1
40
 2.25714278221130E+0000
41
 2.25714278221130E+0000
62
7
0
VERTEX
8
Arrows
10
 4.79171187500000E+0005
20
 1.10175700000000E+0006
30
0.0
42
 0.00000000000000E+0000
0
VERTEX
8
Arrows
10
 4.79166000000000E+0005
20
 1.10173750000000E+0006
30
0.0
42
 0.00000000000000E+0000
0
SEQEND
0
POLYLINE
8
Arrows
66
1
40
 2.25714278221130E+0000
41
 2.25714278221130E+0000
62
7
0
VERTEX
8
Arrows
10
 4.79171187500000E+0005
20
 1.10175700000000E+0006
30
0.0
42
 0.00000000000000E+0000
0
VERTEX
8
Arrows
10
 4.79183687500000E+0005
20
 1.10174112500000E+0006
30
0.0
42
 0.00000000000000E+0000
0
SEQEND
0
POLYLINE
8
Links
66
1
40
 2.25714278221130E+0000
41
 2.25714278221130E+0000
62
7
0
VERTEX
8
Links
10
 4.79166062500000E+0005
20
 1.10178162500000E+0006
30
0.0
42
 0.00000000000000E+0000
0
VERTEX
8
Links
10
 4.79162968750000E+0005
20
 1.10181625000000E+0006
30
0.0
42
 0.00000000000000E+0000
0
SEQEND
0
POLYLINE
8
Arrows
66
1
40
 2.25714278221130E+0000
41
 2.25714278221130E+0000
62
7
0
VERTEX
8
Arrows
10
 4.79164500000000E+0005
20
 1.10179900000000E+0006
30
0.0
42
 0.00000000000000E+0000
0
VERTEX
8
Arrows
10
 4.79157125000000E+0005
20
 1.10178025000000E+0006
30
0.0
42
 0.00000000000000E+0000
0
SEQEND
0
POLYLINE
8
Arrows
66
1
40
 2.25714278221130E+0000
41
 2.25714278221130E+0000
62
7
0
VERTEX
8
Arrows
10
 4.79164500000000E+0005
20
 1.10179900000000E+0006
30
0.0
42
 0.00000000000000E+0000
0
VERTEX
8
Arrows
10
 4.79175093750000E+0005
20
 1.10178187500000E+0006
30
0.0
42
 0.00000000000000E+0000
0
SEQEND
0
POLYLINE
8
Links
66
1
40
 2.25714278221130E+0000
41
 2.25714278221130E+0000
62
7
0
VERTEX
8
Links
10
 4.79162968750000E+0005
20
 1.10181625000000E+0006
30
0.0
42
 0.00000000000000E+0000
0
VERTEX
8
Links
10
 4.79105593750000E+0005
20
 1.10180625000000E+0006
30
0.0
42
 0.00000000000000E+0000
0
SEQEND
0
POLYLINE
8
Arrows
66
1
40
 2.25714278221130E+0000
41
 2.25714278221130E+0000
62
7
0
VERTEX
8
Arrows
10
 4.79134281250000E+0005
20
 1.10181125000000E+0006
30
0.0
42
 0.00000000000000E+0000
0
VERTEX
8
Arrows
10
 4.79153625000000E+0005
20
 1.10180550000000E+0006
30
0.0
42
 0.00000000000000E+0000
0
SEQEND
0
POLYLINE
8
Arrows
66
1
40
 2.25714278221130E+0000
41
 2.25714278221130E+0000
62
7
0
VERTEX
8
Arrows
10
 4.79134281250000E+0005
20
 1.10181125000000E+0006
30
0.0
42
 0.00000000000000E+0000
0
VERTEX
8
Arrows
10
 4.79150531250000E+0005
20
 1.10182325000000E+0006
30
0.0
42
 0.00000000000000E+0000
0
SEQEND
0
POLYLINE
8
Links
66
1
40
 2.25714278221130E+0000
41
 2.25714278221130E+0000
62
7
0
VERTEX
8
Links
10
 4.79121500000000E+0005
20
 1.10174737500000E+0006
30
0.0
42
 0.00000000000000E+0000
0
VERTEX
8
Links
10
 4.79114843750000E+0005
20
 1.10176812500000E+0006
30
0.0
42
 0.00000000000000E+0000
0
SEQEND
0
POLYLINE
8
Arrows
66
1
40
 2.25714278221130E+0000
41
 2.25714278221130E+0000
62
7
0
VERTEX
8
Arrows
10
 4.79118187500000E+0005
20
 1.10175775000000E+0006
30
0.0
42
 0.00000000000000E+0000
0
VERTEX
8
Arrows
10
 4.79115093750000E+0005
20
 1.10173775000000E+0006
30
0.0
42
 0.00000000000000E+0000
0
SEQEND
0
POLYLINE
8
Arrows
66
1
40
 2.25714278221130E+0000
41
 2.25714278221130E+0000
62
7
0
VERTEX
8
Arrows
10
 4.79118187500000E+0005
20
 1.10175775000000E+0006
30
0.0
42
 0.00000000000000E+0000
0
VERTEX
8
Arrows
10
 4.79132312500000E+0005
20
 1.10174337500000E+0006
30
0.0
42
 0.00000000000000E+0000
0
SEQEND
0
POLYLINE
8
Links
66
1
40
 2.25714278221130E+0000
41
 2.25714278221130E+0000
62
7
0
VERTEX
8
Links
10
 4.79114843750000E+0005
20
 1.10176812500000E+0006
30
0.0
42
 0.00000000000000E+0000
0
VERTEX
8
Links
10
 4.79105593750000E+0005
20
 1.10180625000000E+0006
30
0.0
42
 0.00000000000000E+0000
0
SEQEND
0
POLYLINE
8
Arrows
66
1
40
 2.25714278221130E+0000
41
 2.25714278221130E+0000
62
7
0
VERTEX
8
Arrows
10
 4.79110218750000E+0005
20
 1.10178725000000E+0006
30
0.0
42
 0.00000000000000E+0000
0
VERTEX
8
Arrows
10
 4.79105687500000E+0005
20
 1.10176762500000E+0006
30
0.0
42
 0.00000000000000E+0000
0
SEQEND
0
POLYLINE
8
Arrows
66
1
40
 2.25714278221130E+0000
41
 2.25714278221130E+0000
62
7
0
VERTEX
8
Arrows
10
 4.79110218750000E+0005
20
 1.10178725000000E+0006
30
0.0
42
 0.00000000000000E+0000
0
VERTEX
8
Arrows
10
 4.79123250000000E+0005
20
 1.10177187500000E+0006
30
0.0
42
 0.00000000000000E+0000
0
SEQEND
0
POLYLINE
8
Nodes
66
1
70
1
40
 1.35428571701049E+0001
41
 1.35428571701049E+0001
62
7
0
VERTEX
8
Nodes
10
 4.78995593750000E+0005
20
 1.10196787500000E+0006
30
0.0
42
 1.00000000000000E+0000
0
VERTEX
8
Nodes
10
 4.79009156250000E+0005
20
 1.10196787500000E+0006
30
0.0
42
 1.00000000000000E+0000
0
SEQEND
0
POLYLINE
8
Nodes
66
1
70
1
40
 1.35428571701049E+0001
41
 1.35428571701049E+0001
62
7
0
VERTEX
8
Nodes
10
 4.79010531250000E+0005
20
 1.10191062500000E+0006
30
0.0
42
 1.00000000000000E+0000
0
VERTEX
8
Nodes
10
 4.79024093750000E+0005
20
 1.10191062500000E+0006
30
0.0
42
 1.00000000000000E+0000
0
SEQEND
0
POLYLINE
8
Nodes
66
1
70
1
40
 1.35428571701049E+0001
41
 1.35428571701049E+0001
62
7
0
VERTEX
8
Nodes
10
 4.79034500000000E+0005
20
 1.10182862500000E+0006
30
0.0
42
 1.00000000000000E+0000
0
VERTEX
8
Nodes
10
 4.79048062500000E+0005
20
 1.10182862500000E+0006
30
0.0
42
 1.00000000000000E+0000
0
SEQEND
0
POLYLINE
8
Nodes
66
1
70
1
40
 1.35428571701049E+0001
41
 1.35428571701049E+0001
62
7
0
VERTEX
8
Nodes
10
 4.79047468750000E+0005
20
 1.10182162500000E+0006
30
0.0
42
 1.00000000000000E+0000
0
VERTEX
8
Nodes
10
 4.79061031250000E+0005
20
 1.10182162500000E+0006
30
0.0
42
 1.00000000000000E+0000
0
SEQEND
0
POLYLINE
8
Nodes
66
1
70
1
40
 1.35428571701049E+0001
41
 1.35428571701049E+0001
62
7
0
VERTEX
8
Nodes
10
 4.79058218750000E+0005
20
 1.10195325000000E+0006
30
0.0
42
 1.00000000000000E+0000
0
VERTEX
8
Nodes
10
 4.79071781250000E+0005
20
 1.10195325000000E+0006
30
0.0
42
 1.00000000000000E+0000
0
SEQEND
0
POLYLINE
8
Nodes
66
1
70
1
40
 1.35428571701049E+0001
41
 1.35428571701049E+0001
62
7
0
VERTEX
8
Nodes
10
 4.79064687500000E+0005
20
 1.10192362500000E+0006
30
0.0
42
 1.00000000000000E+0000
0
VERTEX
8
Nodes
10
 4.79078250000000E+0005
20
 1.10192362500000E+0006
30
0.0
42
 1.00000000000000E+0000
0
SEQEND
0
POLYLINE
8
Nodes
66
1
70
1
40
 1.35428571701049E+0001
41
 1.35428571701049E+0001
62
7
0
VERTEX
8
Nodes
10
 4.79087375000000E+0005
20
 1.10185112500000E+0006
30
0.0
42
 1.00000000000000E+0000
0
VERTEX
8
Nodes
10
 4.79100937500000E+0005
20
 1.10185112500000E+0006
30
0.0
42
 1.00000000000000E+0000
0
SEQEND
0
POLYLINE
8
Nodes
66
1
70
1
40
 1.35428571701049E+0001
41
 1.35428571701049E+0001
62
7
0
VERTEX
8
Nodes
10
 4.79199218750000E+0005
20
 1.10196625000000E+0006
30
0.0
42
 1.00000000000000E+0000
0
VERTEX
8
Nodes
10
 4.79212781250000E+0005
20
 1.10196625000000E+0006
30
0.0
42
 1.00000000000000E+0000
0
SEQEND
0
POLYLINE
8
Nodes
66
1
70
1
40
 1.35428571701049E+0001
41
 1.35428571701049E+0001
62
7
0
VERTEX
8
Nodes
10
 4.79126281250000E+0005
20
 1.10196825000000E+0006
30
0.0
42
 1.00000000000000E+0000
0
VERTEX
8
Nodes
10
 4.79139843750000E+0005
20
 1.10196825000000E+0006
30
0.0
42
 1.00000000000000E+0000
0
SEQEND
0
POLYLINE
8
Nodes
66
1
70
1
40
 1.35428571701049E+0001
41
 1.35428571701049E+0001
62
7
0
VERTEX
8
Nodes
10
 4.79143312500000E+0005
20
 1.10189575000000E+0006
30
0.0
42
 1.00000000000000E+0000
0
VERTEX
8
Nodes
10
 4.79156875000000E+0005
20
 1.10189575000000E+0006
30
0.0
42
 1.00000000000000E+0000
0
SEQEND
0
POLYLINE
8
Nodes
66
1
70
1
40
 1.35428571701049E+0001
41
 1.35428571701049E+0001
62
7
0
VERTEX
8
Nodes
10
 4.79146937500000E+0005
20
 1.10185362500000E+0006
30
0.0
42
 1.00000000000000E+0000
0
VERTEX
8
Nodes
10
 4.79160500000000E+0005
20
 1.10185362500000E+0006
30
0.0
42
 1.00000000000000E+0000
0
SEQEND
0
POLYLINE
8
Nodes
66
1
70
1
40
 1.35428571701049E+0001
41
 1.35428571701049E+0001
62
7
0
VERTEX
8
Nodes
10
 4.79092656250000E+0005
20
 1.10183700000000E+0006
30
0.0
42
 1.00000000000000E+0000
0
VERTEX
8
Nodes
10
 4.79106218750000E+0005
20
 1.10183700000000E+0006
30
0.0
42
 1.00000000000000E+0000
0
SEQEND
0
POLYLINE
8
Nodes
66
1
70
1
40
 1.35428571701049E+0001
41
 1.35428571701049E+0001
62
7
0
VERTEX
8
Nodes
10
 4.79281875000000E+0005
20
 1.10211812500000E+0006
30
0.0
42
 1.00000000000000E+0000
0
VERTEX
8
Nodes
10
 4.79295437500000E+0005
20
 1.10211812500000E+0006
30
0.0
42
 1.00000000000000E+0000
0
SEQEND
0
POLYLINE
8
Nodes
66
1
70
1
40
 1.35428571701049E+0001
41
 1.35428571701049E+0001
62
7
0
VERTEX
8
Nodes
10
 4.79236906250000E+0005
20
 1.10207925000000E+0006
30
0.0
42
 1.00000000000000E+0000
0
VERTEX
8
Nodes
10
 4.79250468750000E+0005
20
 1.10207925000000E+0006
30
0.0
42
 1.00000000000000E+0000
0
SEQEND
0
POLYLINE
8
Nodes
66
1
70
1
40
 1.35428571701049E+0001
41
 1.35428571701049E+0001
62
7
0
VERTEX
8
Nodes
10
 4.79208937500000E+0005
20
 1.10204487500000E+0006
30
0.0
42
 1.00000000000000E+0000
0
VERTEX
8
Nodes
10
 4.79222500000000E+0005
20
 1.10204487500000E+0006
30
0.0
42
 1.00000000000000E+0000
0
SEQEND
0
POLYLINE
8
Nodes
66
1
70
1
40
 1.35428571701049E+0001
41
 1.35428571701049E+0001
62
7
0
VERTEX
8
Nodes
10
 4.79169625000000E+0005
20
 1.10201725000000E+0006
30
0.0
42
 1.00000000000000E+0000
0
VERTEX
8
Nodes
10
 4.79183187500000E+0005
20
 1.10201725000000E+0006
30
0.0
42
 1.00000000000000E+0000
0
SEQEND
0
POLYLINE
8
Nodes
66
1
70
1
40
 1.35428571701049E+0001
41
 1.35428571701049E+0001
62
7
0
VERTEX
8
Nodes
10
 4.79200843750000E+0005
20
 1.10201487500000E+0006
30
0.0
42
 1.00000000000000E+0000
0
VERTEX
8
Nodes
10
 4.79214406250000E+0005
20
 1.10201487500000E+0006
30
0.0
42
 1.00000000000000E+0000
0
SEQEND
0
POLYLINE
8
Nodes
66
1
70
1
40
 1.35428571701049E+0001
41
 1.35428571701049E+0001
62
7
0
VERTEX
8
Nodes
10
 4.79284718750000E+0005
20
 1.10205937500000E+0006
30
0.0
42
 1.00000000000000E+0000
0
VERTEX
8
Nodes
10
 4.79298281250000E+0005
20
 1.10205937500000E+0006
30
0.0
42
 1.00000000000000E+0000
0
SEQEND
0
POLYLINE
8
Nodes
66
1
70
1
40
 1.35428571701049E+0001
41
 1.35428571701049E+0001
62
7
0
VERTEX
8
Nodes
10
 4.79422875000000E+0005
20
 1.10201162500000E+0006
30
0.0
42
 1.00000000000000E+0000
0
VERTEX
8
Nodes
10
 4.79436437500000E+0005
20
 1.10201162500000E+0006
30
0.0
42
 1.00000000000000E+0000
0
SEQEND
0
POLYLINE
8
Nodes
66
1
70
1
40
 1.35428571701049E+0001
41
 1.35428571701049E+0001
62
7
0
VERTEX
8
Nodes
10
 4.79335750000000E+0005
20
 1.10201525000000E+0006
30
0.0
42
 1.00000000000000E+0000
0
VERTEX
8
Nodes
10
 4.79349312500000E+0005
20
 1.10201525000000E+0006
30
0.0
42
 1.00000000000000E+0000
0
SEQEND
0
POLYLINE
8
Nodes
66
1
70
1
40
 1.35428571701049E+0001
41
 1.35428571701049E+0001
62
7
0
VERTEX
8
Nodes
10
 4.79285937500000E+0005
20
 1.10201287500000E+0006
30
0.0
42
 1.00000000000000E+0000
0
VERTEX
8
Nodes
10
 4.79299500000000E+0005
20
 1.10201287500000E+0006
30
0.0
42
 1.00000000000000E+0000
0
SEQEND
0
POLYLINE
8
Nodes
66
1
70
1
40
 1.35428571701049E+0001
41
 1.35428571701049E+0001
62
7
0
VERTEX
8
Nodes
10
 4.79286750000000E+0005
20
 1.10197350000000E+0006
30
0.0
42
 1.00000000000000E+0000
0
VERTEX
8
Nodes
10
 4.79300312500000E+0005
20
 1.10197350000000E+0006
30
0.0
42
 1.00000000000000E+0000
0
SEQEND
0
POLYLINE
8
Nodes
66
1
70
1
40
 1.35428571701049E+0001
41
 1.35428571701049E+0001
62
7
0
VERTEX
8
Nodes
10
 4.79287156250000E+0005
20
 1.10196212500000E+0006
30
0.0
42
 1.00000000000000E+0000
0
VERTEX
8
Nodes
10
 4.79300718750000E+0005
20
 1.10196212500000E+0006
30
0.0
42
 1.00000000000000E+0000
0
SEQEND
0
POLYLINE
8
Nodes
66
1
70
1
40
 1.35428571701049E+0001
41
 1.35428571701049E+0001
62
7
0
VERTEX
8
Nodes
10
 4.79283500000000E+0005
20
 1.10192450000000E+0006
30
0.0
42
 1.00000000000000E+0000
0
VERTEX
8
Nodes
10
 4.79297062500000E+0005
20
 1.10192450000000E+0006
30
0.0
42
 1.00000000000000E+0000
0
SEQEND
0
POLYLINE
8
Nodes
66
1
70
1
40
 1.35428571701049E+0001
41
 1.35428571701049E+0001
62
7
0
VERTEX
8
Nodes
10
 4.79442718750000E+0005
20
 1.10195887500000E+0006
30
0.0
42
 1.00000000000000E+0000
0
VERTEX
8
Nodes
10
 4.79456281250000E+0005
20
 1.10195887500000E+0006
30
0.0
42
 1.00000000000000E+0000
0
SEQEND
0
POLYLINE
8
Nodes
66
1
70
1
40
 1.35428571701049E+0001
41
 1.35428571701049E+0001
62
7
0
VERTEX
8
Nodes
10
 4.79429375000000E+0005
20
 1.10195362500000E+0006
30
0.0
42
 1.00000000000000E+0000
0
VERTEX
8
Nodes
10
 4.79442937500000E+0005
20
 1.10195362500000E+0006
30
0.0
42
 1.00000000000000E+0000
0
SEQEND
0
POLYLINE
8
Nodes
66
1
70
1
40
 1.35428571701049E+0001
41
 1.35428571701049E+0001
62
7
0
VERTEX
8
Nodes
10
 4.79407062500000E+0005
20
 1.10195525000000E+0006
30
0.0
42
 1.00000000000000E+0000
0
VERTEX
8
Nodes
10
 4.79420625000000E+0005
20
 1.10195525000000E+0006
30
0.0
42
 1.00000000000000E+0000
0
SEQEND
0
POLYLINE
8
Nodes
66
1
70
1
40
 1.35428571701049E+0001
41
 1.35428571701049E+0001
62
7
0
VERTEX
8
Nodes
10
 4.79406656250000E+0005
20
 1.10191150000000E+0006
30
0.0
42
 1.00000000000000E+0000
0
VERTEX
8
Nodes
10
 4.79420218750000E+0005
20
 1.10191150000000E+0006
30
0.0
42
 1.00000000000000E+0000
0
SEQEND
0
POLYLINE
8
Nodes
66
1
70
1
40
 1.35428571701049E+0001
41
 1.35428571701049E+0001
62
7
0
VERTEX
8
Nodes
10
 4.79405875000000E+0005
20
 1.10189900000000E+0006
30
0.0
42
 1.00000000000000E+0000
0
VERTEX
8
Nodes
10
 4.79419437500000E+0005
20
 1.10189900000000E+0006
30
0.0
42
 1.00000000000000E+0000
0
SEQEND
0
POLYLINE
8
Nodes
66
1
70
1
40
 1.35428571701049E+0001
41
 1.35428571701049E+0001
62
7
0
VERTEX
8
Nodes
10
 4.79203281250000E+0005
20
 1.10189812500000E+0006
30
0.0
42
 1.00000000000000E+0000
0
VERTEX
8
Nodes
10
 4.79216843750000E+0005
20
 1.10189812500000E+0006
30
0.0
42
 1.00000000000000E+0000
0
SEQEND
0
POLYLINE
8
Nodes
66
1
70
1
40
 1.35428571701049E+0001
41
 1.35428571701049E+0001
62
7
0
VERTEX
8
Nodes
10
 4.79283093750000E+0005
20
 1.10189212500000E+0006
30
0.0
42
 1.00000000000000E+0000
0
VERTEX
8
Nodes
10
 4.79296656250000E+0005
20
 1.10189212500000E+0006
30
0.0
42
 1.00000000000000E+0000
0
SEQEND
0
POLYLINE
8
Nodes
66
1
70
1
40
 1.35428571701049E+0001
41
 1.35428571701049E+0001
62
7
0
VERTEX
8
Nodes
10
 4.79300906250000E+0005
20
 1.10180000000000E+0006
30
0.0
42
 1.00000000000000E+0000
0
VERTEX
8
Nodes
10
 4.79314468750000E+0005
20
 1.10180000000000E+0006
30
0.0
42
 1.00000000000000E+0000
0
SEQEND
0
POLYLINE
8
Nodes
66
1
70
1
40
 1.35428571701049E+0001
41
 1.35428571701049E+0001
62
7
0
VERTEX
8
Nodes
10
 4.79343093750000E+0005
20
 1.10181037500000E+0006
30
0.0
42
 1.00000000000000E+0000
0
VERTEX
8
Nodes
10
 4.79356656250000E+0005
20
 1.10181037500000E+0006
30
0.0
42
 1.00000000000000E+0000
0
SEQEND
0
POLYLINE
8
Nodes
66
1
70
1
40
 1.35428571701049E+0001
41
 1.35428571701049E+0001
62
7
0
VERTEX
8
Nodes
10
 4.79324968750000E+0005
20
 1.10183512500000E+0006
30
0.0
42
 1.00000000000000E+0000
0
VERTEX
8
Nodes
10
 4.79338531250000E+0005
20
 1.10183512500000E+0006
30
0.0
42
 1.00000000000000E+0000
0
SEQEND
0
POLYLINE
8
Nodes
66
1
70
1
40
 1.35428571701049E+0001
41
 1.35428571701049E+0001
62
7
0
VERTEX
8
Nodes
10
 4.79246718750000E+0005
20
 1.10171662500000E+0006
30
0.0
42
 1.00000000000000E+0000
0
VERTEX
8
Nodes
10
 4.79260281250000E+0005
20
 1.10171662500000E+0006
30
0.0
42
 1.00000000000000E+0000
0
SEQEND
0
POLYLINE
8
Nodes
66
1
70
1
40
 1.35428571701049E+0001
41
 1.35428571701049E+0001
62
7
0
VERTEX
8
Nodes
10
 4.79241437500000E+0005
20
 1.10174412500000E+0006
30
0.0
42
 1.00000000000000E+0000
0
VERTEX
8
Nodes
10
 4.79255000000000E+0005
20
 1.10174412500000E+0006
30
0.0
42
 1.00000000000000E+0000
0
SEQEND
0
POLYLINE
8
Nodes
66
1
70
1
40
 1.35428571701049E+0001
41
 1.35428571701049E+0001
62
7
0
VERTEX
8
Nodes
10
 4.79208375000000E+0005
20
 1.10170850000000E+0006
30
0.0
42
 1.00000000000000E+0000
0
VERTEX
8
Nodes
10
 4.79221937500000E+0005
20
 1.10170850000000E+0006
30
0.0
42
 1.00000000000000E+0000
0
SEQEND
0
POLYLINE
8
Nodes
66
1
70
1
40
 1.35428571701049E+0001
41
 1.35428571701049E+0001
62
7
0
VERTEX
8
Nodes
10
 4.79194687500000E+0005
20
 1.10178225000000E+0006
30
0.0
42
 1.00000000000000E+0000
0
VERTEX
8
Nodes
10
 4.79208250000000E+0005
20
 1.10178225000000E+0006
30
0.0
42
 1.00000000000000E+0000
0
SEQEND
0
POLYLINE
8
Nodes
66
1
70
1
40
 1.35428571701049E+0001
41
 1.35428571701049E+0001
62
7
0
VERTEX
8
Nodes
10
 4.79190968750000E+0005
20
 1.10180700000000E+0006
30
0.0
42
 1.00000000000000E+0000
0
VERTEX
8
Nodes
10
 4.79204531250000E+0005
20
 1.10180700000000E+0006
30
0.0
42
 1.00000000000000E+0000
0
SEQEND
0
POLYLINE
8
Nodes
66
1
70
1
40
 1.35428571701049E+0001
41
 1.35428571701049E+0001
62
7
0
VERTEX
8
Nodes
10
 4.79225781250000E+0005
20
 1.10181775000000E+0006
30
0.0
42
 1.00000000000000E+0000
0
VERTEX
8
Nodes
10
 4.79239343750000E+0005
20
 1.10181775000000E+0006
30
0.0
42
 1.00000000000000E+0000
0
SEQEND
0
POLYLINE
8
Nodes
66
1
70
1
40
 1.35428571701049E+0001
41
 1.35428571701049E+0001
62
7
0
VERTEX
8
Nodes
10
 4.79173593750000E+0005
20
 1.10170337500000E+0006
30
0.0
42
 1.00000000000000E+0000
0
VERTEX
8
Nodes
10
 4.79187156250000E+0005
20
 1.10170337500000E+0006
30
0.0
42
 1.00000000000000E+0000
0
SEQEND
0
POLYLINE
8
Nodes
66
1
70
1
40
 1.35428571701049E+0001
41
 1.35428571701049E+0001
62
7
0
VERTEX
8
Nodes
10
 4.79169500000000E+0005
20
 1.10173225000000E+0006
30
0.0
42
 1.00000000000000E+0000
0
VERTEX
8
Nodes
10
 4.79183062500000E+0005
20
 1.10173225000000E+0006
30
0.0
42
 1.00000000000000E+0000
0
SEQEND
0
POLYLINE
8
Nodes
66
1
70
1
40
 1.35428571701049E+0001
41
 1.35428571701049E+0001
62
7
0
VERTEX
8
Nodes
10
 4.79159281250000E+0005
20
 1.10178162500000E+0006
30
0.0
42
 1.00000000000000E+0000
0
VERTEX
8
Nodes
10
 4.79172843750000E+0005
20
 1.10178162500000E+0006
30
0.0
42
 1.00000000000000E+0000
0
SEQEND
0
POLYLINE
8
Nodes
66
1
70
1
40
 1.35428571701049E+0001
41
 1.35428571701049E+0001
62
7
0
VERTEX
8
Nodes
10
 4.79156187500000E+0005
20
 1.10181625000000E+0006
30
0.0
42
 1.00000000000000E+0000
0
VERTEX
8
Nodes
10
 4.79169750000000E+0005
20
 1.10181625000000E+0006
30
0.0
42
 1.00000000000000E+0000
0
SEQEND
0
POLYLINE
8
Nodes
66
1
70
1
40
 1.35428571701049E+0001
41
 1.35428571701049E+0001
62
7
0
VERTEX
8
Nodes
10
 4.79114718750000E+0005
20
 1.10174737500000E+0006
30
0.0
42
 1.00000000000000E+0000
0
VERTEX
8
Nodes
10
 4.79128281250000E+0005
20
 1.10174737500000E+0006
30
0.0
42
 1.00000000000000E+0000
0
SEQEND
0
POLYLINE
8
Nodes
66
1
70
1
40
 1.35428571701049E+0001
41
 1.35428571701049E+0001
62
7
0
VERTEX
8
Nodes
10
 4.79099187500000E+0005
20
 1.10175962500000E+0006
30
0.0
42
 1.00000000000000E+0000
0
VERTEX
8
Nodes
10
 4.79112750000000E+0005
20
 1.10175962500000E+0006
30
0.0
42
 1.00000000000000E+0000
0
SEQEND
0
POLYLINE
8
Nodes
66
1
70
1
40
 1.35428571701049E+0001
41
 1.35428571701049E+0001
62
7
0
VERTEX
8
Nodes
10
 4.79108062500000E+0005
20
 1.10176812500000E+0006
30
0.0
42
 1.00000000000000E+0000
0
VERTEX
8
Nodes
10
 4.79121625000000E+0005
20
 1.10176812500000E+0006
30
0.0
42
 1.00000000000000E+0000
0
SEQEND
0
POLYLINE
8
Nodes
66
1
70
1
40
 1.35428571701049E+0001
41
 1.35428571701049E+0001
62
7
0
VERTEX
8
Nodes
10
 4.79036187500000E+0005
20
 1.10180125000000E+0006
30
0.0
42
 1.00000000000000E+0000
0
VERTEX
8
Nodes
10
 4.79049750000000E+0005
20
 1.10180125000000E+0006
30
0.0
42
 1.00000000000000E+0000
0
SEQEND
0
POLYLINE
8
Nodes
66
1
70
1
40
 1.35428571701049E+0001
41
 1.35428571701049E+0001
62
7
0
VERTEX
8
Nodes
10
 4.79100750000000E+0005
20
 1.10181512500000E+0006
30
0.0
42
 1.00000000000000E+0000
0
VERTEX
8
Nodes
10
 4.79114312500000E+0005
20
 1.10181512500000E+0006
30
0.0
42
 1.00000000000000E+0000
0
SEQEND
0
POLYLINE
8
Nodes
66
1
70
1
40
 1.35428571701049E+0001
41
 1.35428571701049E+0001
62
7
0
VERTEX
8
Nodes
10
 4.79288437500000E+0005
20
 1.10185862500000E+0006
30
0.0
42
 1.00000000000000E+0000
0
VERTEX
8
Nodes
10
 4.79302000000000E+0005
20
 1.10185862500000E+0006
30
0.0
42
 1.00000000000000E+0000
0
SEQEND
0
POLYLINE
8
Nodes
66
1
70
1
40
 1.35428571701049E+0001
41
 1.35428571701049E+0001
62
7
0
VERTEX
8
Nodes
10
 4.79297218750000E+0005
20
 1.10186175000000E+0006
30
0.0
42
 1.00000000000000E+0000
0
VERTEX
8
Nodes
10
 4.79310781250000E+0005
20
 1.10186175000000E+0006
30
0.0
42
 1.00000000000000E+0000
0
SEQEND
0
POLYLINE
8
Nodes
66
1
70
1
40
 1.35428571701049E+0001
41
 1.35428571701049E+0001
62
7
0
VERTEX
8
Nodes
10
 4.79227250000000E+0005
20
 1.10183737500000E+0006
30
0.0
42
 1.00000000000000E+0000
0
VERTEX
8
Nodes
10
 4.79240812500000E+0005
20
 1.10183737500000E+0006
30
0.0
42
 1.00000000000000E+0000
0
SEQEND
0
POLYLINE
8
Nodes
66
1
70
1
40
 1.35428571701049E+0001
41
 1.35428571701049E+0001
62
7
0
VERTEX
8
Nodes
10
 4.79098812500000E+0005
20
 1.10180625000000E+0006
30
0.0
42
 1.00000000000000E+0000
0
VERTEX
8
Nodes
10
 4.79112375000000E+0005
20
 1.10180625000000E+0006
30
0.0
42
 1.00000000000000E+0000
0
SEQEND
0
ENDSEC
0
EOF
